Павел Фахртдинов - выведи.

Не давно услышал песню замечательного автора по имени Павел Фахртдинов, поёт он отлично… да и сильно… в отличии от меня.  Я часто играю его песни, но сегодня остановлюсь на одной его песне — выведи.

Павел Фахртдинов — выведи.

Вступление:

     Am            Am/G             E/G#          Am           

     E  E  S  S E  E    E  E  E     E    E  E  E  E  E  E  E   

E||-------------0----------0-----|----------0-----------0-----|

B||--------0s-1----0----------0--|-------------0--1--------1--|

G||--2------------------2--------|--4----------------2--------|

D||-----2------------------------|-------0--------------------|

A||--0---------------------------|----------------0-----------|

E||----------------3-------------|--4-------------------------|

 

 

  Dm7/9          Dm7/9/G                                        

  E     E  E  E  E       E  E  E     E  E  S  S E  E  E  E  E   

-----------0----------------0-----|-------------0--------0-----|

-----------0----------------0-----|--------0s-1----------3-----|

--------5-----5----------5-----5--|-----0-------------1-----1--|

--0-------------------------------|----------------------------|

----------------------------------|--3-------------------------|

-----------------3----------------|----------------0-----------|

 

 

  Am            Am/G             E/G#          Am           

  E  E  S  S E  E    E  E  E     E    E  E  E  E  E  E  E   

-------------0----------0-----|----------0-----------0-----|

--------0s-1----0----------0--|-------------0--1--------1--|

--2------------------2--------|--4----------------2--------|

-----2------------------------|-------0--------------------|

--0---------------------------|----------------0-----------|

----------------3-------------|--4-------------------------|

 

 

  Dm7/9          Dm7/9/G                                        

  E     E  E  E  E       E  E  E     E  E  S  S E  E  E  E  E   

-----------0----------------0-----|-------------0--------0-----|

-----------0----------------0-----|--------0s-1----------3-----|

--------5-----5----------5-----5--|-----0-------------1-----1--|

--0-------------------------------|----------------------------|

----------------------------------|--3-------------------------|

-----------------3----------------|----------------0-----------|

 

Am             Am/G

Выведи меня отсюда

E               Am

Человек с крыльями 

Dm7/9    Dm7/9(+G в бас)  C     E(E7) 

Я хочу найти рельефы следа на воде

Am             Am/G

Мне когда-то было Слово, я его выменял.

E               Am

А сейчас так много слов, но все не те.

Dm7/9   Dm7/9(+A в бас)  Dm7/9(+G# в бас)   Dm7/9(+G в бас)  

Только слышу, как спускаются на крыши люди 

C                                         E7/B          A7

Или же высшее, что не ново, они несут нам слово 

Dm7/9   Dm7/9(+A в бас)  Dm7/9(+G# в бас)   Dm7/9(+G в бас)  

Позабытое потерянное временами между нами бывшее 

C               Hm7/9        E7

А теперь, кто мы друг без друга 

 

Проигрыш

 E  E  E  E  E  E  E  E     E  E  E  E  E  E  E  E   

--------0-----------0-----|--------0-----------0-----|

--------6-----------6-----|--------6-----------6-----|

-----5-----5-----5-----5--|-----5-----5-----5-----5--|

--0-----------------------|--------------------------|

--------------0-----------|--------------------------|

--------------------------|--4-----------3-----------|

 

 

  E  E  E  E  E  E  E  E     E  E  E  E  E  E  E  E   

--------0-----------0-----|--------0-----------0-----|

--------1-----------1-----|--------3-----------3-----|

-----0-----0-----0-----0--|-----2-----2-----1-----1--|

--------------2-----------|--------------------------|

--3-----------------------|--2-----------------------|

--------------------------|--------------0-----------|

 

 

  E  E  E  E  E  E  E  E     E  E  E  E  E  E  E  E   

--------0-----------0-----|--------0-----------0-----|

--------6-----------6-----|--------6-----------6-----|

-----5-----5-----5-----5--|-----5-----5-----5-----5--|

--0-----------------------|--------------------------|

--------------0-----------|--------------------------|

--------------------------|--4-----------3-----------|

 

 

  E  E  E  E  E  E  E  E     E  E  E  E  E  E  E  E   

--------0-----------0-----|--------0-----------0-----|

--------1-----------1-----|--------3-----------2-----|

-----0-----0-----0-----0--|-----0-----0-----0-----0--|

--------------2-----------|--------------------------|

--3-----------------------|--1-----------0-----------|

--------------------------|--------------------------|

 

 

  E  E  E  E  E  E  E  E     E  E  E  E  E  E  E  E   

--------0-----------0-----|--------0-----------0-----|

--------6-----------6-----|--------6-----------6-----|

-----5-----5-----5-----5--|-----5-----5-----5-----5--|

--0-----------------------|--------------------------|

--------------0-----------|--------------------------|

--------------------------|--4-----------3-----------|

 

 

  E  E  E  E  E  E  E  E     E  E  E  E  E  E  E  E    

--------0-----------0-----|--------0-----------0-----||

--------1-----------1-----|--------3-----------3-----||

-----0-----0-----0-----0--|-----2-----2-----1-----1--||

--------------2-----------|--------------------------||

--3-----------------------|--2-----------------------||

--------------------------|--------------0-----------||

 

выведи меня отсюда верою в светлое

страшно в одиноком лифте жизни в темноте

мне б найти без грима лица — пусть черные, пусть белые

я когда-то видел маски — все не те

                                           (переход на бой)

только слышу, как спускаются на крыши люди или же 

высшее, что не ново,

они несут нам слово

позабытое, потерянное временами, между нами бывшее

а теперь кто мы друг без друга?

(Аккорды как в проигрыше)

Выхожу еженочно на узкий балкон подышать никотином,

Оставляя себя на постели, лежащего навзничь.

В коридоре у двери входной только пара ботинок.

На всякий случай я не запираюсь на ночь,

Вдруг захочется выйти куда-нибудь и не звенеть ключами,

Чтобы не будить того, кого уже долго нет.

Я курю на балконе пустыми, пустыми ночами

И смотрю вослед навсегда уходящему свету…

 

Вроде всё… хотя подбор самостоятельный и упрощённый...)

Спасибо за внимание.

Обсудить у себя 0
Комментарии (4)

О, снимаю шляпу, если ты действительно сам на слух подобрал. У меня максимум аккорды получается услышать и то если повезёт, а переборы вообще никак не могу на слух)

да там же перебор, последовательность звуков)

Клацай кнопку «Ответить» Я ведь могу и не вспомнить, что я где-то оставил комментарий)

ок) не заметил)

Чтобы комментировать надо зарегистрироваться или если вы уже регистрировались войти в свой аккаунт.

Войти через социальные сети: